Харьковский форум
 
 
Фраза дня: любой шаг может изменить жизнь. Вопрос лишь в том, куда этот шаг сделать...
 
 ВКонтакте Одноклассники Twitter Facebook
 
 
 
 
 


Вернуться   Харьковский форум > Дневники > Dementy

Важная информация

Оценить эту запись

Табулатура.

Запись от Dementy размещена 02.09.2018 в 17:47

Табулату́ра (нем. Tabulatur, итал. intavolatura) — тип музыкальной нотации, схематическая запись музыки для клавишных (органа, клавесина), некоторых струнных (лютни, виуэлы, гитары) и (редко) духовых инструментов. Табулатура оперирует рабочими элементами музыкального инструмента (клавишами, струнами, ладами). Для сокращения записи в табулатуре применяются буквы, цифры и специальные символы.

Современная гитарная табулатура

Классическая гитара имеет шесть струн, пронумерованных от тонкой (первой) к толстой (шестой):

1)-------------------------------
2)-------------------------------
3)-------------------------------
4)-------------------------------
5)-------------------------------
6)-------------------------------

Звук извлекается путём зажима струны на определенном ладу и её щипком над декой. На табулатурах нужный лад обозначается арабской цифрой. Цифра 0 соответствует открытой (не зажатой) струне, символ «x» соответствует приглушенной (не звучащей) струне. Длина ноты характеризуется количеством свободных символов между нотами (то есть, проще говоря, количеством дефисов «-»).

Табулатура вступления песни «В траве сидел кузнечик»:

1)-5-0-5-0-5-4-4---4-0-4-0-4-5-5
2)------------------------------
3)------------------------------
4)------------------------------
5)------------------------------
6)------------------------------

Часто табулатуры также содержат различные указатели, необходимые для правильной игры. Например:

D|-12-9--------------------------
A|------12-9---------------------
F|-----------11-9-11b-9----------
C|----------------------11-9-9h11
G|-------------------------------
D|-------------------------------

В этой табулатуре показано, что седьмую ноту нужно взять с приёмом «бенд», а последнюю ноту восходящим легато («hammer-on») — одиннадцатая нота извлекается обычным образом, а двенадцатая извлекается лишь зажатием соответствующего ей лада (выполнять щипок струны уже не нужно). Кроме того, вместо номеров струн здесь обозначены ноты, соответствующие звучанию открытой струны — вместо стандартного строя ми (EBGDAE) здесь используется пониженный на один тон строй ре (DAFCGD).

Просмотров 0 Комментарии 0 Редактировать метки Отправить другу ссылку на эту запись
Всего комментариев 0

Комментарии

 


Текущее время: 02:39. Часовой пояс GMT +3.


Powered by vBulletin® Version 3.8.7
Copyright ©2000 - 2018, vBulletin Solutions, Inc. Перевод: zCarot
Copyright © 2014 - 2018 Kharkovforums

Время генерации страницы 0.09210 секунды с 18 запросами